[Boards: 3 / a / aco / adv / an / asp / b / bant / biz / c / can / cgl / ck / cm / co / cock / d / diy / e / fa / fap / fit / fitlit / g / gd / gif / h / hc / his / hm / hr / i / ic / int / jp / k / lgbt / lit / m / mlp / mlpol / mo / mtv / mu / n / news / o / out / outsoc / p / po / pol / qa / qst / r / r9k / s / s4s / sci / soc / sp / spa / t / tg / toy / trash / trv / tv / u / v / vg / vint / vip / vp / vr / w / wg / wsg / wsr / x / y ] [Search | Click for more| Home]

We haven't had one of these threads in ages. Tab is in the

The stories and information posted here are artistic works of fiction and falsehood.
Only a fool would take anything posted here as fact.

Thread replies: 33
Thread images: 2

File: tabs.png (18KB, 945x382px) Image search: [iqdb] [SauceNao] [Google]
tabs.png
18KB, 945x382px
We haven't had one of these threads in ages. Tab is in the next post. BPM is only included if you know it.
>>
Easy one to start with

---------------------------------------------------------------
----------0--1------------------------------------------------
----------------------------------0---2---------------------------
------2---------0--1------------------------------------------
--0--------------------------3-----------------------------------
-------------------------1--------------------------------------
>>
Okay what about that one that's all like:

wa wa chicka wa wa, wa wa, chicka wawawawaaaaa, wachickachicka
wa wa chicka wa wa, wa wa, chicka wawawawaaaaa
wer, wer, wer, na na na na naaaaaana
wer, wer, wer, nan na na na naaaaAaa
>>
>>606133468
Sorry, I don't speak homosex.
>>
http://vocaroo.com/i/s0XqPVzkFvRs
>>
>>606133251
Californication
>>
>>606133251
Californication. Next
>>
>>606133468
Bulls on parade ?
>>
>>606133468
killing in the name
>>
>>606133780
>>606133860
House of the rising sun. Next
>>
>>606133468
rage against the machine something.

that one song.
>>
-5-----7-----4-----5-----4-----------
---0-----0-----0-----0-----7-5------
-----6-----6-----6-----6--------6----
-----------------------------------------
-----------------------------------------
-----------------------------------------
>>
Guitarfag here. I'll post another thread like this is about an hour for the luls
>>
here's one I like
----------------------------------------------------------------
-----------------------------------------------------------------
---------7h8--7------------------------------------5----------
------------------------7h8--7--------------5---------7-------
--0--0------------0---------------0--8--7-----7---------------
------------------------------------------------------------------
>>
>>606134057
http://vocaroo.com/i/s1ZproirWOOd
>>
>>606133468

Voodoo Child.
>>
E---------------------------------------------
B---------------------------------------------
G---------------------------------------------
D---------------------------------------------
A---2--2------2--4--5----5--5--4--4-
E----------------------------------------------
>>
My favourite bass line. Also played on guitar

E --5-X--3-5-6
A ----------------4/5/4

X - slap
/ - Slide
>>
>>606134260
Closer to the heart
>>
>>606134444
Seek and destroy
>>
>>606134865
YAS
>>
>>606134444
Quads Check'd sir
>>
>>606135029
Thats my fav song to play on acoustic, surprised to see it here lol
>>
>>606133468
Definitely bulls on parade
>>
>>606134444

seek and destroy. didn't even have to touch my guitar, good taste.
>>
>>606134444
seek and destroy
>>
http://vocaroo.com/i/s1mlfGqslNfX
>>
-------------9p8-------------------------------------------|
--------11--------11----9-11-9-----9-----------------------|
----10---------------10---------8-----8--11---10--11-10----|
-8------------------------------------------------------11-|
-----------------------------------------------------------|
-----------------------------------------------------------|
>>
---------3p2---------------2------------------2-------------------2------
--3--3-------2--------2------2----------3------3------------3-----3----
----2--2------------------2-----2----------4------4------------4-----4--
-----------------------2-----------------4-------------------4--------------
------------------0-4--------------4-2----------------2-0-----------------
------------------------------------------------------------------------------
>>
>>606135557
cochise
>>
|-------------------------------------------------------------------|
|-------------------------------------------------------------------|
|--7-------------6-------------------------------------------------|
|----9-7-----------7----------------------------------------------|
|--------9-7h8h9-----9--7-7h8h9--7-5-----------7-5------|
|-------------------------------7-5-5h6h7-----7-5-5h6h7---|
Hardmode
Let's hope I typed it right
>>
>>606134683
Satisfaction
>>
>>606136111
|-------------------------------------------------------------------|
|-------------------------------------------------------------------|
|--7-------------6-------------------------------------------------|
|----9-7-----------7----------------------------------------------|
|--------9-7h8h9-----9--7-7h8h9--7-5-----------7-5------|
|-------------------------------7-5-5h6h7-----7-5-5h6h7---|


Let's hope I fixed it, fuck
Thread posts: 33
Thread images: 2


[Boards: 3 / a / aco / adv / an / asp / b / bant / biz / c / can / cgl / ck / cm / co / cock / d / diy / e / fa / fap / fit / fitlit / g / gd / gif / h / hc / his / hm / hr / i / ic / int / jp / k / lgbt / lit / m / mlp / mlpol / mo / mtv / mu / n / news / o / out / outsoc / p / po / pol / qa / qst / r / r9k / s / s4s / sci / soc / sp / spa / t / tg / toy / trash / trv / tv / u / v / vg / vint / vip / vp / vr / w / wg / wsg / wsr / x / y] [Search | Top | Home]
Please support this website by donating Bitcoins to 16mKtbZiwW52BLkibtCr8jUg2KVUMTxVQ5
If a post contains copyrighted or illegal content, please click on that post's [Report] button and fill out a post removal request
All trademarks and copyrights on this page are owned by their respective parties. Images uploaded are the responsibility of the Poster. Comments are owned by the Poster.
This is a 4chan archive - all of the content originated from that site. This means that 4Archive shows an archive of their content. If you need information for a Poster - contact them.